ISO-10303-21;
HEADER;
/* Generated by software containing ST-Developer
 * from STEP Tools, Inc. (www.steptools.com) 
 */

FILE_DESCRIPTION(
/* description */ (''),
/* implementation_level */ '2;1');

FILE_NAME(
/* name */ 'Timer module case.step',
/* time_stamp */ '2025-11-02T20:40:40+02:00',
/* author */ (''),
/* organization */ (''),
/* preprocessor_version */ 'ST-DEVELOPER v20.1',
/* originating_system */ 'Autodesk Translation Framework v14.17.0.0',
/* authorisation */ '');

FILE_SCHEMA (('AUTOMOTIVE_DESIGN { 1 0 10303 214 3 1 1 }'));
ENDSEC;

DATA;
#10=MECHANICAL_DESIGN_GEOMETRIC_PRESENTATION_REPRESENTATION('',(#13),#670);
#11=SHAPE_REPRESENTATION_RELATIONSHIP('SRR','None',#677,#12);
#12=ADVANCED_BREP_SHAPE_REPRESENTATION('',(#14),#669);
#13=STYLED_ITEM('',(#686),#14);
#14=MANIFOLD_SOLID_BREP('Body1',#408);
#15=FACE_BOUND('',#49,.T.);
#16=FACE_BOUND('',#62,.T.);
#17=CYLINDRICAL_SURFACE('',#428,3.25);
#18=CYLINDRICAL_SURFACE('',#433,4.48474343870725);
#19=FACE_OUTER_BOUND('',#40,.T.);
#20=FACE_OUTER_BOUND('',#41,.T.);
#21=FACE_OUTER_BOUND('',#42,.T.);
#22=FACE_OUTER_BOUND('',#43,.T.);
#23=FACE_OUTER_BOUND('',#44,.T.);
#24=FACE_OUTER_BOUND('',#45,.T.);
#25=FACE_OUTER_BOUND('',#46,.T.);
#26=FACE_OUTER_BOUND('',#47,.T.);
#27=FACE_OUTER_BOUND('',#48,.T.);
#28=FACE_OUTER_BOUND('',#50,.T.);
#29=FACE_OUTER_BOUND('',#51,.T.);
#30=FACE_OUTER_BOUND('',#52,.T.);
#31=FACE_OUTER_BOUND('',#53,.T.);
#32=FACE_OUTER_BOUND('',#54,.T.);
#33=FACE_OUTER_BOUND('',#55,.T.);
#34=FACE_OUTER_BOUND('',#56,.T.);
#35=FACE_OUTER_BOUND('',#57,.T.);
#36=FACE_OUTER_BOUND('',#58,.T.);
#37=FACE_OUTER_BOUND('',#59,.T.);
#38=FACE_OUTER_BOUND('',#60,.T.);
#39=FACE_OUTER_BOUND('',#61,.T.);
#40=EDGE_LOOP('',(#258,#259));
#41=EDGE_LOOP('',(#260,#261,#262,#263));
#42=EDGE_LOOP('',(#264,#265,#266,#267));
#43=EDGE_LOOP('',(#268,#269,#270,#271,#272,#273,#274,#275));
#44=EDGE_LOOP('',(#276,#277,#278,#279,#280,#281));
#45=EDGE_LOOP('',(#282,#283,#284,#285));
#46=EDGE_LOOP('',(#286,#287,#288,#289));
#47=EDGE_LOOP('',(#290,#291,#292,#293));
#48=EDGE_LOOP('',(#294,#295,#296,#297));
#49=EDGE_LOOP('',(#298));
#50=EDGE_LOOP('',(#299,#300,#301,#302));
#51=EDGE_LOOP('',(#303,#304,#305,#306,#307,#308,#309,#310,#311,#312,#313));
#52=EDGE_LOOP('',(#314,#315,#316,#317));
#53=EDGE_LOOP('',(#318,#319,#320,#321,#322,#323,#324,#325));
#54=EDGE_LOOP('',(#326,#327,#328,#329,#330,#331));
#55=EDGE_LOOP('',(#332,#333,#334,#335));
#56=EDGE_LOOP('',(#336,#337,#338,#339));
#57=EDGE_LOOP('',(#340,#341,#342,#343));
#58=EDGE_LOOP('',(#344,#345,#346,#347));
#59=EDGE_LOOP('',(#348,#349,#350,#351));
#60=EDGE_LOOP('',(#352,#353,#354,#355,#356,#357,#358,#359));
#61=EDGE_LOOP('',(#360,#361,#362,#363));
#62=EDGE_LOOP('',(#364,#365,#366,#367));
#63=LINE('',#559,#112);
#64=LINE('',#563,#113);
#65=LINE('',#565,#114);
#66=LINE('',#567,#115);
#67=LINE('',#568,#116);
#68=LINE('',#572,#117);
#69=LINE('',#574,#118);
#70=LINE('',#576,#119);
#71=LINE('',#577,#120);
#72=LINE('',#581,#121);
#73=LINE('',#583,#122);
#74=LINE('',#585,#123);
#75=LINE('',#587,#124);
#76=LINE('',#589,#125);
#77=LINE('',#593,#126);
#78=LINE('',#594,#127);
#79=LINE('',#599,#128);
#80=LINE('',#604,#129);
#81=LINE('',#606,#130);
#82=LINE('',#607,#131);
#83=LINE('',#611,#132);
#84=LINE('',#614,#133);
#85=LINE('',#615,#134);
#86=LINE('',#617,#135);
#87=LINE('',#620,#136);
#88=LINE('',#622,#137);
#89=LINE('',#623,#138);
#90=LINE('',#625,#139);
#91=LINE('',#626,#140);
#92=LINE('',#628,#141);
#93=LINE('',#630,#142);
#94=LINE('',#632,#143);
#95=LINE('',#633,#144);
#96=LINE('',#636,#145);
#97=LINE('',#637,#146);
#98=LINE('',#639,#147);
#99=LINE('',#641,#148);
#100=LINE('',#643,#149);
#101=LINE('',#644,#150);
#102=LINE('',#647,#151);
#103=LINE('',#649,#152);
#104=LINE('',#652,#153);
#105=LINE('',#654,#154);
#106=LINE('',#655,#155);
#107=LINE('',#658,#156);
#108=LINE('',#660,#157);
#109=LINE('',#661,#158);
#110=LINE('',#663,#159);
#111=LINE('',#664,#160);
#112=VECTOR('',#455,10.);
#113=VECTOR('',#458,10.);
#114=VECTOR('',#459,10.);
#115=VECTOR('',#460,10.);
#116=VECTOR('',#461,10.);
#117=VECTOR('',#464,10.);
#118=VECTOR('',#465,10.);
#119=VECTOR('',#466,10.);
#120=VECTOR('',#467,10.);
#121=VECTOR('',#470,10.);
#122=VECTOR('',#471,10.);
#123=VECTOR('',#472,10.);
#124=VECTOR('',#473,10.);
#125=VECTOR('',#474,10.);
#126=VECTOR('',#477,10.);
#127=VECTOR('',#478,10.);
#128=VECTOR('',#483,3.25);
#129=VECTOR('',#490,10.);
#130=VECTOR('',#491,10.);
#131=VECTOR('',#492,10.);
#132=VECTOR('',#497,10.);
#133=VECTOR('',#500,10.);
#134=VECTOR('',#501,10.);
#135=VECTOR('',#504,10.);
#136=VECTOR('',#507,10.);
#137=VECTOR('',#508,10.);
#138=VECTOR('',#509,10.);
#139=VECTOR('',#512,10.);
#140=VECTOR('',#513,10.);
#141=VECTOR('',#514,10.);
#142=VECTOR('',#515,10.);
#143=VECTOR('',#516,10.);
#144=VECTOR('',#517,10.);
#145=VECTOR('',#520,10.);
#146=VECTOR('',#521,10.);
#147=VECTOR('',#524,10.);
#148=VECTOR('',#525,10.);
#149=VECTOR('',#526,10.);
#150=VECTOR('',#527,10.);
#151=VECTOR('',#532,10.);
#152=VECTOR('',#535,10.);
#153=VECTOR('',#538,10.);
#154=VECTOR('',#539,10.);
#155=VECTOR('',#540,10.);
#156=VECTOR('',#543,10.);
#157=VECTOR('',#544,10.);
#158=VECTOR('',#545,10.);
#159=VECTOR('',#548,10.);
#160=VECTOR('',#549,10.);
#161=CIRCLE('',#423,3.25);
#162=CIRCLE('',#427,4.48474343870725);
#163=CIRCLE('',#429,3.25);
#164=CIRCLE('',#430,3.25);
#165=CIRCLE('',#431,3.25);
#166=CIRCLE('',#434,4.48474343870725);
#167=VERTEX_POINT('',#556);
#168=VERTEX_POINT('',#557);
#169=VERTEX_POINT('',#561);
#170=VERTEX_POINT('',#562);
#171=VERTEX_POINT('',#564);
#172=VERTEX_POINT('',#566);
#173=VERTEX_POINT('',#570);
#174=VERTEX_POINT('',#571);
#175=VERTEX_POINT('',#573);
#176=VERTEX_POINT('',#575);
#177=VERTEX_POINT('',#579);
#178=VERTEX_POINT('',#580);
#179=VERTEX_POINT('',#582);
#180=VERTEX_POINT('',#584);
#181=VERTEX_POINT('',#586);
#182=VERTEX_POINT('',#588);
#183=VERTEX_POINT('',#590);
#184=VERTEX_POINT('',#592);
#185=VERTEX_POINT('',#596);
#186=VERTEX_POINT('',#598);
#187=VERTEX_POINT('',#603);
#188=VERTEX_POINT('',#605);
#189=VERTEX_POINT('',#609);
#190=VERTEX_POINT('',#613);
#191=VERTEX_POINT('',#619);
#192=VERTEX_POINT('',#621);
#193=VERTEX_POINT('',#627);
#194=VERTEX_POINT('',#629);
#195=VERTEX_POINT('',#631);
#196=VERTEX_POINT('',#635);
#197=VERTEX_POINT('',#640);
#198=VERTEX_POINT('',#642);
#199=VERTEX_POINT('',#651);
#200=VERTEX_POINT('',#653);
#201=VERTEX_POINT('',#657);
#202=VERTEX_POINT('',#659);
#203=EDGE_CURVE('',#167,#168,#161,.T.);
#204=EDGE_CURVE('',#168,#167,#63,.F.);
#205=EDGE_CURVE('',#169,#170,#64,.F.);
#206=EDGE_CURVE('',#171,#170,#65,.F.);
#207=EDGE_CURVE('',#171,#172,#66,.T.);
#208=EDGE_CURVE('',#172,#169,#67,.F.);
#209=EDGE_CURVE('',#173,#174,#68,.F.);
#210=EDGE_CURVE('',#175,#174,#69,.T.);
#211=EDGE_CURVE('',#175,#176,#70,.T.);
#212=EDGE_CURVE('',#176,#173,#71,.F.);
#213=EDGE_CURVE('',#177,#178,#72,.T.);
#214=EDGE_CURVE('',#179,#177,#73,.T.);
#215=EDGE_CURVE('',#179,#180,#74,.T.);
#216=EDGE_CURVE('',#181,#180,#75,.T.);
#217=EDGE_CURVE('',#181,#182,#76,.T.);
#218=EDGE_CURVE('',#182,#183,#162,.T.);
#219=EDGE_CURVE('',#183,#184,#77,.T.);
#220=EDGE_CURVE('',#178,#184,#78,.T.);
#221=EDGE_CURVE('',#185,#185,#163,.T.);
#222=EDGE_CURVE('',#185,#186,#79,.T.);
#223=EDGE_CURVE('',#168,#186,#164,.T.);
#224=EDGE_CURVE('',#186,#167,#165,.T.);
#225=EDGE_CURVE('',#181,#187,#80,.T.);
#226=EDGE_CURVE('',#188,#187,#81,.T.);
#227=EDGE_CURVE('',#182,#188,#82,.T.);
#228=EDGE_CURVE('',#189,#188,#166,.T.);
#229=EDGE_CURVE('',#183,#189,#83,.T.);
#230=EDGE_CURVE('',#190,#189,#84,.T.);
#231=EDGE_CURVE('',#184,#190,#85,.T.);
#232=EDGE_CURVE('',#187,#190,#86,.T.);
#233=EDGE_CURVE('',#191,#171,#87,.T.);
#234=EDGE_CURVE('',#191,#192,#88,.T.);
#235=EDGE_CURVE('',#172,#192,#89,.T.);
#236=EDGE_CURVE('',#170,#168,#90,.F.);
#237=EDGE_CURVE('',#167,#173,#91,.F.);
#238=EDGE_CURVE('',#176,#193,#92,.T.);
#239=EDGE_CURVE('',#194,#193,#93,.T.);
#240=EDGE_CURVE('',#195,#194,#94,.T.);
#241=EDGE_CURVE('',#195,#191,#95,.T.);
#242=EDGE_CURVE('',#196,#175,#96,.T.);
#243=EDGE_CURVE('',#196,#193,#97,.T.);
#244=EDGE_CURVE('',#174,#169,#98,.F.);
#245=EDGE_CURVE('',#197,#192,#99,.T.);
#246=EDGE_CURVE('',#198,#197,#100,.T.);
#247=EDGE_CURVE('',#198,#196,#101,.T.);
#248=EDGE_CURVE('',#197,#195,#102,.T.);
#249=EDGE_CURVE('',#194,#198,#103,.T.);
#250=EDGE_CURVE('',#199,#179,#104,.T.);
#251=EDGE_CURVE('',#199,#200,#105,.T.);
#252=EDGE_CURVE('',#180,#200,#106,.T.);
#253=EDGE_CURVE('',#177,#201,#107,.T.);
#254=EDGE_CURVE('',#202,#178,#108,.T.);
#255=EDGE_CURVE('',#201,#202,#109,.T.);
#256=EDGE_CURVE('',#201,#199,#110,.T.);
#257=EDGE_CURVE('',#200,#202,#111,.T.);
#258=ORIENTED_EDGE('',*,*,#203,.T.);
#259=ORIENTED_EDGE('',*,*,#204,.T.);
#260=ORIENTED_EDGE('',*,*,#205,.T.);
#261=ORIENTED_EDGE('',*,*,#206,.F.);
#262=ORIENTED_EDGE('',*,*,#207,.T.);
#263=ORIENTED_EDGE('',*,*,#208,.T.);
#264=ORIENTED_EDGE('',*,*,#209,.T.);
#265=ORIENTED_EDGE('',*,*,#210,.F.);
#266=ORIENTED_EDGE('',*,*,#211,.T.);
#267=ORIENTED_EDGE('',*,*,#212,.T.);
#268=ORIENTED_EDGE('',*,*,#213,.F.);
#269=ORIENTED_EDGE('',*,*,#214,.F.);
#270=ORIENTED_EDGE('',*,*,#215,.T.);
#271=ORIENTED_EDGE('',*,*,#216,.F.);
#272=ORIENTED_EDGE('',*,*,#217,.T.);
#273=ORIENTED_EDGE('',*,*,#218,.T.);
#274=ORIENTED_EDGE('',*,*,#219,.T.);
#275=ORIENTED_EDGE('',*,*,#220,.F.);
#276=ORIENTED_EDGE('',*,*,#221,.F.);
#277=ORIENTED_EDGE('',*,*,#222,.T.);
#278=ORIENTED_EDGE('',*,*,#223,.F.);
#279=ORIENTED_EDGE('',*,*,#203,.F.);
#280=ORIENTED_EDGE('',*,*,#224,.F.);
#281=ORIENTED_EDGE('',*,*,#222,.F.);
#282=ORIENTED_EDGE('',*,*,#217,.F.);
#283=ORIENTED_EDGE('',*,*,#225,.T.);
#284=ORIENTED_EDGE('',*,*,#226,.F.);
#285=ORIENTED_EDGE('',*,*,#227,.F.);
#286=ORIENTED_EDGE('',*,*,#218,.F.);
#287=ORIENTED_EDGE('',*,*,#227,.T.);
#288=ORIENTED_EDGE('',*,*,#228,.F.);
#289=ORIENTED_EDGE('',*,*,#229,.F.);
#290=ORIENTED_EDGE('',*,*,#219,.F.);
#291=ORIENTED_EDGE('',*,*,#229,.T.);
#292=ORIENTED_EDGE('',*,*,#230,.F.);
#293=ORIENTED_EDGE('',*,*,#231,.F.);
#294=ORIENTED_EDGE('',*,*,#230,.T.);
#295=ORIENTED_EDGE('',*,*,#228,.T.);
#296=ORIENTED_EDGE('',*,*,#226,.T.);
#297=ORIENTED_EDGE('',*,*,#232,.T.);
#298=ORIENTED_EDGE('',*,*,#221,.T.);
#299=ORIENTED_EDGE('',*,*,#233,.F.);
#300=ORIENTED_EDGE('',*,*,#234,.T.);
#301=ORIENTED_EDGE('',*,*,#235,.F.);
#302=ORIENTED_EDGE('',*,*,#207,.F.);
#303=ORIENTED_EDGE('',*,*,#236,.T.);
#304=ORIENTED_EDGE('',*,*,#223,.T.);
#305=ORIENTED_EDGE('',*,*,#224,.T.);
#306=ORIENTED_EDGE('',*,*,#237,.T.);
#307=ORIENTED_EDGE('',*,*,#212,.F.);
#308=ORIENTED_EDGE('',*,*,#238,.T.);
#309=ORIENTED_EDGE('',*,*,#239,.F.);
#310=ORIENTED_EDGE('',*,*,#240,.F.);
#311=ORIENTED_EDGE('',*,*,#241,.T.);
#312=ORIENTED_EDGE('',*,*,#233,.T.);
#313=ORIENTED_EDGE('',*,*,#206,.T.);
#314=ORIENTED_EDGE('',*,*,#238,.F.);
#315=ORIENTED_EDGE('',*,*,#211,.F.);
#316=ORIENTED_EDGE('',*,*,#242,.F.);
#317=ORIENTED_EDGE('',*,*,#243,.T.);
#318=ORIENTED_EDGE('',*,*,#244,.T.);
#319=ORIENTED_EDGE('',*,*,#208,.F.);
#320=ORIENTED_EDGE('',*,*,#235,.T.);
#321=ORIENTED_EDGE('',*,*,#245,.F.);
#322=ORIENTED_EDGE('',*,*,#246,.F.);
#323=ORIENTED_EDGE('',*,*,#247,.T.);
#324=ORIENTED_EDGE('',*,*,#242,.T.);
#325=ORIENTED_EDGE('',*,*,#210,.T.);
#326=ORIENTED_EDGE('',*,*,#236,.F.);
#327=ORIENTED_EDGE('',*,*,#205,.F.);
#328=ORIENTED_EDGE('',*,*,#244,.F.);
#329=ORIENTED_EDGE('',*,*,#209,.F.);
#330=ORIENTED_EDGE('',*,*,#237,.F.);
#331=ORIENTED_EDGE('',*,*,#204,.F.);
#332=ORIENTED_EDGE('',*,*,#248,.F.);
#333=ORIENTED_EDGE('',*,*,#245,.T.);
#334=ORIENTED_EDGE('',*,*,#234,.F.);
#335=ORIENTED_EDGE('',*,*,#241,.F.);
#336=ORIENTED_EDGE('',*,*,#249,.F.);
#337=ORIENTED_EDGE('',*,*,#239,.T.);
#338=ORIENTED_EDGE('',*,*,#243,.F.);
#339=ORIENTED_EDGE('',*,*,#247,.F.);
#340=ORIENTED_EDGE('',*,*,#250,.F.);
#341=ORIENTED_EDGE('',*,*,#251,.T.);
#342=ORIENTED_EDGE('',*,*,#252,.F.);
#343=ORIENTED_EDGE('',*,*,#215,.F.);
#344=ORIENTED_EDGE('',*,*,#253,.F.);
#345=ORIENTED_EDGE('',*,*,#213,.T.);
#346=ORIENTED_EDGE('',*,*,#254,.F.);
#347=ORIENTED_EDGE('',*,*,#255,.F.);
#348=ORIENTED_EDGE('',*,*,#256,.F.);
#349=ORIENTED_EDGE('',*,*,#255,.T.);
#350=ORIENTED_EDGE('',*,*,#257,.F.);
#351=ORIENTED_EDGE('',*,*,#251,.F.);
#352=ORIENTED_EDGE('',*,*,#257,.T.);
#353=ORIENTED_EDGE('',*,*,#254,.T.);
#354=ORIENTED_EDGE('',*,*,#220,.T.);
#355=ORIENTED_EDGE('',*,*,#231,.T.);
#356=ORIENTED_EDGE('',*,*,#232,.F.);
#357=ORIENTED_EDGE('',*,*,#225,.F.);
#358=ORIENTED_EDGE('',*,*,#216,.T.);
#359=ORIENTED_EDGE('',*,*,#252,.T.);
#360=ORIENTED_EDGE('',*,*,#256,.T.);
#361=ORIENTED_EDGE('',*,*,#250,.T.);
#362=ORIENTED_EDGE('',*,*,#214,.T.);
#363=ORIENTED_EDGE('',*,*,#253,.T.);
#364=ORIENTED_EDGE('',*,*,#248,.T.);
#365=ORIENTED_EDGE('',*,*,#240,.T.);
#366=ORIENTED_EDGE('',*,*,#249,.T.);
#367=ORIENTED_EDGE('',*,*,#246,.T.);
#368=PLANE('',#422);
#369=PLANE('',#424);
#370=PLANE('',#425);
#371=PLANE('',#426);
#372=PLANE('',#432);
#373=PLANE('',#435);
#374=PLANE('',#436);
#375=PLANE('',#437);
#376=PLANE('',#438);
#377=PLANE('',#439);
#378=PLANE('',#440);
#379=PLANE('',#441);
#380=PLANE('',#442);
#381=PLANE('',#443);
#382=PLANE('',#444);
#383=PLANE('',#445);
#384=PLANE('',#446);
#385=PLANE('',#447);
#386=PLANE('',#448);
#387=ADVANCED_FACE('',(#19),#368,.T.);
#388=ADVANCED_FACE('',(#20),#369,.F.);
#389=ADVANCED_FACE('',(#21),#370,.F.);
#390=ADVANCED_FACE('',(#22),#371,.T.);
#391=ADVANCED_FACE('',(#23),#17,.F.);
#392=ADVANCED_FACE('',(#24),#372,.T.);
#393=ADVANCED_FACE('',(#25),#18,.T.);
#394=ADVANCED_FACE('',(#26),#373,.T.);
#395=ADVANCED_FACE('',(#27,#15),#374,.T.);
#396=ADVANCED_FACE('',(#28),#375,.T.);
#397=ADVANCED_FACE('',(#29),#376,.F.);
#398=ADVANCED_FACE('',(#30),#377,.T.);
#399=ADVANCED_FACE('',(#31),#378,.F.);
#400=ADVANCED_FACE('',(#32),#379,.T.);
#401=ADVANCED_FACE('',(#33),#380,.F.);
#402=ADVANCED_FACE('',(#34),#381,.F.);
#403=ADVANCED_FACE('',(#35),#382,.T.);
#404=ADVANCED_FACE('',(#36),#383,.T.);
#405=ADVANCED_FACE('',(#37),#384,.T.);
#406=ADVANCED_FACE('',(#38),#385,.T.);
#407=ADVANCED_FACE('',(#39,#16),#386,.F.);
#408=CLOSED_SHELL('',(#387,#388,#389,#390,#391,#392,#393,#394,#395,#396,
#397,#398,#399,#400,#401,#402,#403,#404,#405,#406,#407));
#409=DERIVED_UNIT_ELEMENT(#411,1.);
#410=DERIVED_UNIT_ELEMENT(#672,-3.);
#411=(
MASS_UNIT()
NAMED_UNIT(*)
SI_UNIT(.KILO.,.GRAM.)
);
#412=DERIVED_UNIT((#409,#410));
#413=MEASURE_REPRESENTATION_ITEM('density measure',
POSITIVE_RATIO_MEASURE(7850.),#412);
#414=PROPERTY_DEFINITION_REPRESENTATION(#419,#416);
#415=PROPERTY_DEFINITION_REPRESENTATION(#420,#417);
#416=REPRESENTATION('material name',(#418),#669);
#417=REPRESENTATION('density',(#413),#669);
#418=DESCRIPTIVE_REPRESENTATION_ITEM('Steel','Steel');
#419=PROPERTY_DEFINITION('material property','material name',#679);
#420=PROPERTY_DEFINITION('material property','density of part',#679);
#421=AXIS2_PLACEMENT_3D('',#554,#449,#450);
#422=AXIS2_PLACEMENT_3D('',#555,#451,#452);
#423=AXIS2_PLACEMENT_3D('',#558,#453,#454);
#424=AXIS2_PLACEMENT_3D('',#560,#456,#457);
#425=AXIS2_PLACEMENT_3D('',#569,#462,#463);
#426=AXIS2_PLACEMENT_3D('',#578,#468,#469);
#427=AXIS2_PLACEMENT_3D('',#591,#475,#476);
#428=AXIS2_PLACEMENT_3D('',#595,#479,#480);
#429=AXIS2_PLACEMENT_3D('',#597,#481,#482);
#430=AXIS2_PLACEMENT_3D('',#600,#484,#485);
#431=AXIS2_PLACEMENT_3D('',#601,#486,#487);
#432=AXIS2_PLACEMENT_3D('',#602,#488,#489);
#433=AXIS2_PLACEMENT_3D('',#608,#493,#494);
#434=AXIS2_PLACEMENT_3D('',#610,#495,#496);
#435=AXIS2_PLACEMENT_3D('',#612,#498,#499);
#436=AXIS2_PLACEMENT_3D('',#616,#502,#503);
#437=AXIS2_PLACEMENT_3D('',#618,#505,#506);
#438=AXIS2_PLACEMENT_3D('',#624,#510,#511);
#439=AXIS2_PLACEMENT_3D('',#634,#518,#519);
#440=AXIS2_PLACEMENT_3D('',#638,#522,#523);
#441=AXIS2_PLACEMENT_3D('',#645,#528,#529);
#442=AXIS2_PLACEMENT_3D('',#646,#530,#531);
#443=AXIS2_PLACEMENT_3D('',#648,#533,#534);
#444=AXIS2_PLACEMENT_3D('',#650,#536,#537);
#445=AXIS2_PLACEMENT_3D('',#656,#541,#542);
#446=AXIS2_PLACEMENT_3D('',#662,#546,#547);
#447=AXIS2_PLACEMENT_3D('',#665,#550,#551);
#448=AXIS2_PLACEMENT_3D('',#666,#552,#553);
#449=DIRECTION('axis',(0.,0.,1.));
#450=DIRECTION('refdir',(1.,0.,0.));
#451=DIRECTION('center_axis',(0.,1.,0.));
#452=DIRECTION('ref_axis',(-1.,0.,0.));
#453=DIRECTION('center_axis',(0.,1.,0.));
#454=DIRECTION('ref_axis',(0.,0.,1.));
#455=DIRECTION('',(1.,0.,0.));
#456=DIRECTION('center_axis',(1.,0.,0.));
#457=DIRECTION('ref_axis',(0.,1.,0.));
#458=DIRECTION('',(0.,-1.,0.));
#459=DIRECTION('',(0.,0.,-1.));
#460=DIRECTION('',(0.,-1.,0.));
#461=DIRECTION('',(0.,0.,-1.));
#462=DIRECTION('center_axis',(-1.,0.,0.));
#463=DIRECTION('ref_axis',(0.,-1.,0.));
#464=DIRECTION('',(0.,1.,0.));
#465=DIRECTION('',(0.,0.,1.));
#466=DIRECTION('',(0.,1.,0.));
#467=DIRECTION('',(0.,0.,-1.));
#468=DIRECTION('center_axis',(0.,1.,0.));
#469=DIRECTION('ref_axis',(-1.,0.,0.));
#470=DIRECTION('',(0.,0.,1.));
#471=DIRECTION('',(1.,0.,0.));
#472=DIRECTION('',(0.,0.,1.));
#473=DIRECTION('',(-1.,0.,0.));
#474=DIRECTION('',(0.00503068739668229,0.,-0.999987346012097));
#475=DIRECTION('center_axis',(0.,-1.,0.));
#476=DIRECTION('ref_axis',(-1.,0.,0.));
#477=DIRECTION('',(0.00338463391481341,0.,0.999994272110227));
#478=DIRECTION('',(-1.,0.,0.));
#479=DIRECTION('center_axis',(0.,-1.,0.));
#480=DIRECTION('ref_axis',(0.,0.,1.));
#481=DIRECTION('center_axis',(0.,-1.,0.));
#482=DIRECTION('ref_axis',(0.,0.,1.));
#483=DIRECTION('',(0.,-1.,0.));
#484=DIRECTION('center_axis',(0.,1.,0.));
#485=DIRECTION('ref_axis',(0.,0.,1.));
#486=DIRECTION('center_axis',(0.,1.,0.));
#487=DIRECTION('ref_axis',(0.,0.,1.));
#488=DIRECTION('center_axis',(-0.999987346012097,0.,-0.00503068739668229));
#489=DIRECTION('ref_axis',(-0.00503068739668229,0.,0.999987346012097));
#490=DIRECTION('',(0.,1.,0.));
#491=DIRECTION('',(-0.00503068739668229,0.,0.999987346012097));
#492=DIRECTION('',(0.,1.,0.));
#493=DIRECTION('center_axis',(0.,1.,0.));
#494=DIRECTION('ref_axis',(-1.,0.,0.));
#495=DIRECTION('center_axis',(0.,1.,0.));
#496=DIRECTION('ref_axis',(-1.,0.,0.));
#497=DIRECTION('',(0.,1.,0.));
#498=DIRECTION('center_axis',(0.999994272110227,0.,-0.00338463391481341));
#499=DIRECTION('ref_axis',(-0.00338463391481341,0.,-0.999994272110227));
#500=DIRECTION('',(-0.00338463391481341,0.,-0.999994272110227));
#501=DIRECTION('',(0.,1.,0.));
#502=DIRECTION('center_axis',(0.,1.,0.));
#503=DIRECTION('ref_axis',(-1.,0.,0.));
#504=DIRECTION('',(1.,0.,0.));
#505=DIRECTION('center_axis',(-0.894427436901531,0.,0.44721310369639));
#506=DIRECTION('ref_axis',(-0.44721310369639,0.,-0.894427436901531));
#507=DIRECTION('',(0.44721310369639,0.,0.894427436901531));
#508=DIRECTION('',(0.,-1.,0.));
#509=DIRECTION('',(-0.44721310369639,0.,-0.894427436901531));
#510=DIRECTION('center_axis',(0.,1.,0.));
#511=DIRECTION('ref_axis',(-1.,0.,0.));
#512=DIRECTION('',(1.,0.,0.));
#513=DIRECTION('',(1.,0.,0.));
#514=DIRECTION('',(0.447213923368749,0.,-0.894427027065446));
#515=DIRECTION('',(0.,0.,1.));
#516=DIRECTION('',(-1.,0.,0.));
#517=DIRECTION('',(0.,0.,1.));
#518=DIRECTION('center_axis',(0.894427027065446,0.,0.447213923368749));
#519=DIRECTION('ref_axis',(-0.447213923368749,0.,0.894427027065446));
#520=DIRECTION('',(-0.447213923368749,0.,0.894427027065446));
#521=DIRECTION('',(0.,1.,0.));
#522=DIRECTION('center_axis',(0.,-1.,0.));
#523=DIRECTION('ref_axis',(1.,0.,0.));
#524=DIRECTION('',(-1.,0.,0.));
#525=DIRECTION('',(0.,0.,1.));
#526=DIRECTION('',(1.,0.,0.));
#527=DIRECTION('',(0.,0.,1.));
#528=DIRECTION('center_axis',(0.,0.,-1.));
#529=DIRECTION('ref_axis',(-1.,0.,0.));
#530=DIRECTION('center_axis',(1.,0.,0.));
#531=DIRECTION('ref_axis',(0.,1.,0.));
#532=DIRECTION('',(0.,1.,0.));
#533=DIRECTION('center_axis',(-1.,0.,0.));
#534=DIRECTION('ref_axis',(0.,-1.,0.));
#535=DIRECTION('',(0.,-1.,0.));
#536=DIRECTION('center_axis',(-1.,0.,0.));
#537=DIRECTION('ref_axis',(0.,-1.,0.));
#538=DIRECTION('',(0.,1.,0.));
#539=DIRECTION('',(0.,0.,1.));
#540=DIRECTION('',(0.,-1.,0.));
#541=DIRECTION('center_axis',(1.,0.,0.));
#542=DIRECTION('ref_axis',(0.,1.,0.));
#543=DIRECTION('',(0.,-1.,0.));
#544=DIRECTION('',(0.,1.,0.));
#545=DIRECTION('',(0.,0.,1.));
#546=DIRECTION('center_axis',(0.,-1.,0.));
#547=DIRECTION('ref_axis',(1.,0.,0.));
#548=DIRECTION('',(-1.,0.,0.));
#549=DIRECTION('',(1.,0.,0.));
#550=DIRECTION('center_axis',(0.,0.,1.));
#551=DIRECTION('ref_axis',(1.,0.,0.));
#552=DIRECTION('center_axis',(0.,0.,1.));
#553=DIRECTION('ref_axis',(1.,0.,0.));
#554=CARTESIAN_POINT('',(0.,0.,0.));
#555=CARTESIAN_POINT('Origin',(33.5,21.5,0.));
#556=CARTESIAN_POINT('',(-1.25000134110367,21.5,40.5));
#557=CARTESIAN_POINT('',(1.25000134110367,21.5,40.5));
#558=CARTESIAN_POINT('Origin',(0.,21.5,37.5000005587935));
#559=CARTESIAN_POINT('',(2.,21.5,40.5));
#560=CARTESIAN_POINT('Origin',(32.,-23.,0.));
#561=CARTESIAN_POINT('',(32.,-21.5,40.5));
#562=CARTESIAN_POINT('',(32.,21.5,40.5));
#563=CARTESIAN_POINT('',(32.,-21.,40.5));
#564=CARTESIAN_POINT('',(31.9999992847443,21.5,2.49999994412065));
#565=CARTESIAN_POINT('',(32.,21.5,0.));
#566=CARTESIAN_POINT('',(31.9999992847443,-21.5,2.49999994412065));
#567=CARTESIAN_POINT('',(32.,-0.75,2.50000137463408));
#568=CARTESIAN_POINT('',(32.,-21.5,0.));
#569=CARTESIAN_POINT('Origin',(-32.,23.,0.));
#570=CARTESIAN_POINT('',(-32.,21.5,40.5));
#571=CARTESIAN_POINT('',(-32.,-21.5,40.5));
#572=CARTESIAN_POINT('',(-32.,21.,40.5));
#573=CARTESIAN_POINT('',(-32.0000004768372,-21.5,2.5000000372529));
#574=CARTESIAN_POINT('',(-32.,-21.5,0.));
#575=CARTESIAN_POINT('',(-32.0000004768372,21.5,2.5000000372529));
#576=CARTESIAN_POINT('',(-32.,22.25,2.49999908357946));
#577=CARTESIAN_POINT('',(-32.,21.5,0.));
#578=CARTESIAN_POINT('Origin',(33.5,23.,0.));
#579=CARTESIAN_POINT('',(33.5,23.,0.));
#580=CARTESIAN_POINT('',(33.5,23.,42.));
#581=CARTESIAN_POINT('',(33.5,23.,0.));
#582=CARTESIAN_POINT('',(-33.5,23.,0.));
#583=CARTESIAN_POINT('',(-33.5,23.,0.));
#584=CARTESIAN_POINT('',(-33.5,23.,42.));
#585=CARTESIAN_POINT('',(-33.5,23.,0.));
#586=CARTESIAN_POINT('',(-4.50743856625429,23.,42.));
#587=CARTESIAN_POINT('',(-33.5,23.,42.));
#588=CARTESIAN_POINT('',(-4.48468668881802,23.,37.4774392164991));
#589=CARTESIAN_POINT('',(-4.38993858640433,23.,18.6436505110348));
#590=CARTESIAN_POINT('',(4.48471775059117,23.,37.4848213440517));
#591=CARTESIAN_POINT('Origin',(0.,23.,37.5000005587935));
#592=CARTESIAN_POINT('',(4.50000006705523,23.,42.0000006258488));
#593=CARTESIAN_POINT('',(4.42908926923533,23.,21.049317794152));
#594=CARTESIAN_POINT('',(-33.5,23.,42.));
#595=CARTESIAN_POINT('Origin',(0.,23.25,37.5000005587935));
#596=CARTESIAN_POINT('',(3.9801020972289E-16,26.,34.2500005587935));
#597=CARTESIAN_POINT('Origin',(0.,26.,37.5000005587935));
#598=CARTESIAN_POINT('',(3.9801020972289E-16,21.5,34.2500005587935));
#599=CARTESIAN_POINT('',(3.9801020972289E-16,23.25,34.2500005587935));
#600=CARTESIAN_POINT('Origin',(0.,21.5,37.5000005587935));
#601=CARTESIAN_POINT('Origin',(0.,21.5,37.5000005587935));
#602=CARTESIAN_POINT('Origin',(-4.48468668881802,23.,37.4774392164991));
#603=CARTESIAN_POINT('',(-4.50743856625429,26.,42.));
#604=CARTESIAN_POINT('',(-4.50743856625429,23.,42.));
#605=CARTESIAN_POINT('',(-4.48468668881802,26.,37.4774392164991));
#606=CARTESIAN_POINT('',(-4.48468668881802,26.,37.4774392164991));
#607=CARTESIAN_POINT('',(-4.48468668881802,23.,37.4774392164991));
#608=CARTESIAN_POINT('Origin',(0.,23.,37.5000005587935));
#609=CARTESIAN_POINT('',(4.48471775059117,26.,37.4848213440517));
#610=CARTESIAN_POINT('Origin',(0.,26.,37.5000005587935));
#611=CARTESIAN_POINT('',(4.48471775059117,23.,37.4848213440517));
#612=CARTESIAN_POINT('Origin',(4.50000006705523,23.,42.0000006258488));
#613=CARTESIAN_POINT('',(4.50000006705523,26.,42.0000006258488));
#614=CARTESIAN_POINT('',(4.50000006705523,26.,42.0000006258488));
#615=CARTESIAN_POINT('',(4.50000006705523,23.,42.0000006258488));
#616=CARTESIAN_POINT('Origin',(-0.00371924959953418,26.,37.5076288729675));
#617=CARTESIAN_POINT('',(-33.5,26.,42.));
#618=CARTESIAN_POINT('Origin',(31.9999992847443,21.5,2.49999994412065));
#619=CARTESIAN_POINT('',(31.5,21.5,1.5));
#620=CARTESIAN_POINT('',(31.6499994499239,21.5,1.79999931223658));
#621=CARTESIAN_POINT('',(31.5,-21.5,1.5));
#622=CARTESIAN_POINT('',(31.5,-10.75,1.5));
#623=CARTESIAN_POINT('',(24.950014185979,-21.5,-11.5999896357094));
#624=CARTESIAN_POINT('Origin',(33.5,21.5,0.));
#625=CARTESIAN_POINT('',(31.5,21.5,40.5));
#626=CARTESIAN_POINT('',(2.,21.5,40.5));
#627=CARTESIAN_POINT('',(-31.5,21.5,1.5));
#628=CARTESIAN_POINT('',(-24.699990304261,21.5,-12.1000069281408));
#629=CARTESIAN_POINT('',(-31.5,21.5,0.));
#630=CARTESIAN_POINT('',(-31.5,21.5,0.));
#631=CARTESIAN_POINT('',(31.5,21.5,0.));
#632=CARTESIAN_POINT('',(15.75,21.5,0.));
#633=CARTESIAN_POINT('',(31.5,21.5,0.));
#634=CARTESIAN_POINT('Origin',(-31.5,21.5,1.5));
#635=CARTESIAN_POINT('',(-31.5,-21.5,1.5));
#636=CARTESIAN_POINT('',(-31.4000001282991,-21.5,1.30000043988214));
#637=CARTESIAN_POINT('',(-31.5,10.75,1.5));
#638=CARTESIAN_POINT('Origin',(-33.5,-21.5,0.));
#639=CARTESIAN_POINT('',(-2.,-21.5,40.5));
#640=CARTESIAN_POINT('',(31.5,-21.5,0.));
#641=CARTESIAN_POINT('',(31.5,-21.5,0.));
#642=CARTESIAN_POINT('',(-31.5,-21.5,0.));
#643=CARTESIAN_POINT('',(-15.75,-21.5,0.));
#644=CARTESIAN_POINT('',(-31.5,-21.5,0.));
#645=CARTESIAN_POINT('Origin',(29.5,-19.,40.5));
#646=CARTESIAN_POINT('Origin',(31.5,-21.5,0.));
#647=CARTESIAN_POINT('',(31.5,-10.75,0.));
#648=CARTESIAN_POINT('Origin',(-31.5,21.5,0.));
#649=CARTESIAN_POINT('',(-31.5,10.75,0.));
#650=CARTESIAN_POINT('Origin',(-33.5,23.,0.));
#651=CARTESIAN_POINT('',(-33.5,-23.,0.));
#652=CARTESIAN_POINT('',(-33.5,-23.,0.));
#653=CARTESIAN_POINT('',(-33.5,-23.,42.));
#654=CARTESIAN_POINT('',(-33.5,-23.,0.));
#655=CARTESIAN_POINT('',(-33.5,-23.,42.));
#656=CARTESIAN_POINT('Origin',(33.5,-23.,0.));
#657=CARTESIAN_POINT('',(33.5,-23.,0.));
#658=CARTESIAN_POINT('',(33.5,23.,0.));
#659=CARTESIAN_POINT('',(33.5,-23.,42.));
#660=CARTESIAN_POINT('',(33.5,23.,42.));
#661=CARTESIAN_POINT('',(33.5,-23.,0.));
#662=CARTESIAN_POINT('Origin',(-33.5,-23.,0.));
#663=CARTESIAN_POINT('',(33.5,-23.,0.));
#664=CARTESIAN_POINT('',(33.5,-23.,42.));
#665=CARTESIAN_POINT('Origin',(0.,0.,42.));
#666=CARTESIAN_POINT('Origin',(0.,0.,0.));
#667=UNCERTAINTY_MEASURE_WITH_UNIT(LENGTH_MEASURE(0.01),#671,
'DISTANCE_ACCURACY_VALUE',
'Maximum model space distance between geometric entities at asserted c
onnectivities');
#668=UNCERTAINTY_MEASURE_WITH_UNIT(LENGTH_MEASURE(0.01),#671,
'DISTANCE_ACCURACY_VALUE',
'Maximum model space distance between geometric entities at asserted c
onnectivities');
#669=(
GEOMETRIC_REPRESENTATION_CONTEXT(3)
GLOBAL_UNCERTAINTY_ASSIGNED_CONTEXT((#667))
GLOBAL_UNIT_ASSIGNED_CONTEXT((#671,#673,#674))
REPRESENTATION_CONTEXT('','3D')
);
#670=(
GEOMETRIC_REPRESENTATION_CONTEXT(3)
GLOBAL_UNCERTAINTY_ASSIGNED_CONTEXT((#668))
GLOBAL_UNIT_ASSIGNED_CONTEXT((#671,#673,#674))
REPRESENTATION_CONTEXT('','3D')
);
#671=(
LENGTH_UNIT()
NAMED_UNIT(*)
SI_UNIT(.MILLI.,.METRE.)
);
#672=(
LENGTH_UNIT()
NAMED_UNIT(*)
SI_UNIT($,.METRE.)
);
#673=(
NAMED_UNIT(*)
PLANE_ANGLE_UNIT()
SI_UNIT($,.RADIAN.)
);
#674=(
NAMED_UNIT(*)
SI_UNIT($,.STERADIAN.)
SOLID_ANGLE_UNIT()
);
#675=SHAPE_DEFINITION_REPRESENTATION(#676,#677);
#676=PRODUCT_DEFINITION_SHAPE('',$,#679);
#677=SHAPE_REPRESENTATION('',(#421),#669);
#678=PRODUCT_DEFINITION_CONTEXT('part definition',#683,'design');
#679=PRODUCT_DEFINITION('2025-11-02-16-43-05-590','Timer module case',#680,
#678);
#680=PRODUCT_DEFINITION_FORMATION('',$,#685);
#681=PRODUCT_RELATED_PRODUCT_CATEGORY('Timer module case',
'Timer module case',(#685));
#682=APPLICATION_PROTOCOL_DEFINITION('international standard',
'automotive_design',2009,#683);
#683=APPLICATION_CONTEXT(
'Core Data for Automotive Mechanical Design Process');
#684=PRODUCT_CONTEXT('part definition',#683,'mechanical');
#685=PRODUCT('2025-11-02-16-43-05-590','Timer module case',$,(#684));
#686=PRESENTATION_STYLE_ASSIGNMENT((#687));
#687=SURFACE_STYLE_USAGE(.BOTH.,#688);
#688=SURFACE_SIDE_STYLE('',(#689));
#689=SURFACE_STYLE_FILL_AREA(#690);
#690=FILL_AREA_STYLE('Steel - Satin',(#691));
#691=FILL_AREA_STYLE_COLOUR('Steel - Satin',#692);
#692=COLOUR_RGB('Steel - Satin',0.627450980392157,0.627450980392157,0.627450980392157);
ENDSEC;
END-ISO-10303-21;
